  0
SECTION
  2
HEADER
  9
$ACADVER
  1
AC1015
  9
$ACADMAINTVER
 70
    13
  9
$DWGCODEPAGE
  3
ANSI_932
  9
$INSBASE
 10
0.0
 20
0.0
 30
0.0
  9
$EXTMIN
 10
-726.0827112564214
 20
1.28864
 30
0.0
  9
$EXTMAX
 10
958.7458978336501
 20
1241.088156873476
 30
0.0
  9
$LIMMIN
 10
0.0
 20
0.0
  9
$LIMMAX
 10
630.0
 20
445.5
  9
$ORTHOMODE
 70
     1
  9
$REGENMODE
 70
     1
  9
$FILLMODE
 70
     1
  9
$QTEXTMODE
 70
     0
  9
$MIRRTEXT
 70
     1
  9
$LTSCALE
 40
12.6
  9
$ATTMODE
 70
     1
  9
$TEXTSIZE
 40
0.2
  9
$TRACEWID
 40
0.05
  9
$TEXTSTYLE
  7
STANDARD
  9
$CLAYER
  8
0
  9
$CELTYPE
  6
CONTINUOUS
  9
$CECOLOR
 62
   256
  9
$CELTSCALE
 40
1.0
  9
$DISPSILH
 70
     0
  9
$DIMSCALE
 40
1.0
  9
$DIMASZ
 40
0.18
  9
$DIMEXO
 40
0.0625
  9
$DIMDLI
 40
0.38
  9
$DIMRND
 40
0.0
  9
$DIMDLE
 40
0.0
  9
$DIMEXE
 40
0.18
  9
$DIMTP
 40
0.0
  9
$DIMTM
 40
0.0
  9
$DIMTXT
 40
0.18
  9
$DIMCEN
 40
0.09
  9
$DIMTSZ
 40
0.0
  9
$DIMTOL
 70
     0
  9
$DIMLIM
 70
     0
  9
$DIMTIH
 70
     1
  9
$DIMTOH
 70
     1
  9
$DIMSE1
 70
     0
  9
$DIMSE2
 70
     0
  9
$DIMTAD
 70
     0
  9
$DIMZIN
 70
     0
  9
$DIMBLK
  1

  9
$DIMASO
 70
     1
  9
$DIMSHO
 70
     1
  9
$DIMPOST
  1

  9
$DIMAPOST
  1

  9
$DIMALT
 70
     0
  9
$DIMALTD
 70
     2
  9
$DIMALTF
 40
25.4
  9
$DIMLFAC
 40
1.0
  9
$DIMTOFL
 70
     0
  9
$DIMTVP
 40
0.0
  9
$DIMTIX
 70
     0
  9
$DIMSOXD
 70
     0
  9
$DIMSAH
 70
     0
  9
$DIMBLK1
  1

  9
$DIMBLK2
  1

  9
$DIMSTYLE
  2
Standard
  9
$DIMCLRD
 70
     0
  9
$DIMCLRE
 70
     0
  9
$DIMCLRT
 70
     0
  9
$DIMTFAC
 40
1.0
  9
$DIMGAP
 40
0.09
  9
$DIMJUST
 70
     0
  9
$DIMSD1
 70
     0
  9
$DIMSD2
 70
     0
  9
$DIMTOLJ
 70
     1
  9
$DIMTZIN
 70
     0
  9
$DIMALTZ
 70
     0
  9
$DIMALTTZ
 70
     0
  9
$DIMUPT
 70
     0
  9
$DIMDEC
 70
     4
  9
$DIMTDEC
 70
     4
  9
$DIMALTU
 70
     2
  9
$DIMALTTD
 70
     2
  9
$DIMTXSTY
  7
STANDARD
  9
$DIMAUNIT
 70
     0
  9
$DIMADEC
 70
     0
  9
$DIMALTRND
 40
0.0
  9
$DIMAZIN
 70
     0
  9
$DIMDSEP
 70
    46
  9
$DIMATFIT
 70
     3
  9
$DIMFRAC
 70
     0
  9
$DIMLDRBLK
  1

  9
$DIMLUNIT
 70
     2
  9
$DIMLWD
 70
    -2
  9
$DIMLWE
 70
    -2
  9
$DIMTMOVE
 70
     0
  9
$LUNITS
 70
     2
  9
$LUPREC
 70
     4
  9
$SKETCHINC
 40
0.1
  9
$FILLETRAD
 40
0.0
  9
$AUNITS
 70
     0
  9
$AUPREC
 70
     0
  9
$MENU
  1
.
  9
$ELEVATION
 40
0.0
  9
$PELEVATION
 40
0.0
  9
$THICKNESS
 40
0.0
  9
$LIMCHECK
 70
     0
  9
$CHAMFERA
 40
0.0
  9
$CHAMFERB
 40
0.0
  9
$CHAMFERC
 40
0.0
  9
$CHAMFERD
 40
0.0
  9
$SKPOLY
 70
     0
  9
$TDCREATE
 40
2452390.877468981
  9
$TDUCREATE
 40
2452390.502468981
  9
$TDUPDATE
 40
2454095.769069189
  9
$TDUUPDATE
 40
2454095.394069189
  9
$TDINDWG
 40
0.0217937731
  9
$TDUSRTIMER
 40
0.0217937731
  9
$USRTIMER
 70
     1
  9
$ANGBASE
 50
0.0
  9
$ANGDIR
 70
     0
  9
$PDMODE
 70
     0
  9
$PDSIZE
 40
0.0
  9
$PLINEWID
 40
0.0
  9
$SPLFRAME
 70
     0
  9
$SPLINETYPE
 70
     6
  9
$SPLINESEGS
 70
     8
  9
$HANDSEED
  5
75B
  9
$SURFTAB1
 70
     6
  9
$SURFTAB2
 70
     6
  9
$SURFTYPE
 70
     6
  9
$SURFU
 70
     6
  9
$SURFV
 70
     6
  9
$UCSBASE
  2

  9
$UCSNAME
  2

  9
$UCSORG
 10
0.0
 20
0.0
 30
0.0
  9
$UCSXDIR
 10
1.0
 20
0.0
 30
0.0
  9
$UCSYDIR
 10
0.0
 20
1.0
 30
0.0
  9
$UCSORTHOREF
  2

  9
$UCSORTHOVIEW
 70
     0
  9
$UCSORGTOP
 10
0.0
 20
0.0
 30
0.0
  9
$UCSORGBOTTOM
 10
0.0
 20
0.0
 30
0.0
  9
$UCSORGLEFT
 10
0.0
 20
0.0
 30
0.0
  9
$UCSORGRIGHT
 10
0.0
 20
0.0
 30
0.0
  9
$UCSORGFRONT
 10
0.0
 20
0.0
 30
0.0
  9
$UCSORGBACK
 10
0.0
 20
0.0
 30
0.0
  9
$PUCSBASE
  2

  9
$PUCSNAME
  2

  9
$PUCSORG
 10
0.0
 20
0.0
 30
0.0
  9
$PUCSXDIR
 10
1.0
 20
0.0
 30
0.0
  9
$PUCSYDIR
 10
0.0
 20
1.0
 30
0.0
  9
$PUCSORTHOREF
  2

  9
$PUCSORTHOVIEW
 70
     0
  9
$PUCSORGTOP
 10
0.0
 20
0.0
 30
0.0
  9
$PUCSORGBOTTOM
 10
0.0
 20
0.0
 30
0.0
  9
$PUCSORGLEFT
 10
0.0
 20
0.0
 30
0.0
  9
$PUCSORGRIGHT
 10
0.0
 20
0.0
 30
0.0
  9
$PUCSORGFRONT
 10
0.0
 20
0.0
 30
0.0
  9
$PUCSORGBACK
 10
0.0
 20
0.0
 30
0.0
  9
$USERI1
 70
     0
  9
$USERI2
 70
     0
  9
$USERI3
 70
     0
  9
$USERI4
 70
     0
  9
$USERI5
 70
     0
  9
$USERR1
 40
0.0
  9
$USERR2
 40
0.0
  9
$USERR3
 40
0.0
  9
$USERR4
 40
0.0
  9
$USERR5
 40
0.0
  9
$WORLDVIEW
 70
     1
  9
$SHADEDGE
 70
     3
  9
$SHADEDIF
 70
    70
  9
$TILEMODE
 70
     1
  9
$MAXACTVP
 70
    64
  9
$PINSBASE
 10
0.0
 20
0.0
 30
0.0
  9
$PLIMCHECK
 70
     0
  9
$PEXTMIN
 10
1.000000000000000E+20
 20
1.000000000000000E+20
 30
1.000000000000000E+20
  9
$PEXTMAX
 10
-1.000000000000000E+20
 20
-1.000000000000000E+20
 30
-1.000000000000000E+20
  9
$PLIMMIN
 10
0.0
 20
0.0
  9
$PLIMMAX
 10
12.0
 20
9.0
  9
$UNITMODE
 70
     0
  9
$VISRETAIN
 70
     1
  9
$PLINEGEN
 70
     0
  9
$PSLTSCALE
 70
     1
  9
$TREEDEPTH
 70
  3020
  9
$CMLSTYLE
  2
Standard
  9
$CMLJUST
 70
     0
  9
$CMLSCALE
 40
1.0
  9
$PROXYGRAPHICS
 70
     1
  9
$MEASUREMENT
 70
     0
  9
$CELWEIGHT
370
    -1
  9
$ENDCAPS
280
     0
  9
$JOINSTYLE
280
     0
  9
$LWDISPLAY
290
     0
  9
$INSUNITS
 70
     0
  9
$HYPERLINKBASE
  1

  9
$STYLESHEET
  1

  9
$XEDIT
290
     1
  9
$CEPSNTYPE
380
     0
  9
$PSTYLEMODE
290
     1
  9
$FINGERPRINTGUID
  2
{1924D68D-0396-4188-BC63-21E517E957B1}
  9
$VERSIONGUID
  2
{DD442237-979C-489C-9A2D-7DC6A7185C63}
  9
$EXTNAMES
290
     1
  9
$PSVPSCALE
 40
0.0
  9
$OLESTARTUP
290
     0
  0
ENDSEC
  0
SECTION
  2
CLASSES
  0
CLASS
  1
ACDBDICTIONARYWDFLT
  2
AcDbDictionaryWithDefault
  3
AutoCAD 2000
 90
        0
280
     0
281
     0
  0
CLASS
  1
ACDBPLACEHOLDER
  2
AcDbPlaceHolder
  3
AutoCAD 2000
 90
        0
280
     0
281
     0
  0
CLASS
  1
LAYOUT
  2
AcDbLayout
  3
AutoCAD 2000
 90
        0
280
     0
281
     0
  0
CLASS
  1
DICTIONARYVAR
  2
AcDbDictionaryVar
  3
AutoCAD 2000
 90
        0
280
     0
281
     0
  0
ENDSEC
  0
SECTION
  2
TABLES
  0
TABLE
  2
VPORT
  5
8
330
0
100
AcDbSymbolTable
 70
     8
  0
VPORT
  5
75A
330
8
100
AcDbSymbolTableRecord
100
AcDbViewportTableRecord
  2
*Active
 70
     0
 10
0.0
 20
0.0
 11
1.0
 21
1.0
 12
-517.5796553799304
 22
1081.564672559634
 13
0.0
 23
0.0
 14
1.0
 24
1.0
 15
0.0
 25
0.0
 16
0.0
 26
0.0
 36
1.0
 17
0.0
 27
0.0
 37
0.0
 40
1038.602796110965
 41
1.510664993726474
 42
50.0
 43
0.0
 44
0.0
 50
0.0
 51
0.0
 71
     0
 72
   100
 73
     1
 74
     1
 75
     0
 76
     0
 77
     0
 78
     0
281
     0
 65
     1
110
0.0
120
0.0
130
0.0
111
1.0
121
0.0
131
0.0
112
0.0
122
1.0
132
0.0
 79
     0
146
0.0
  0
ENDTAB
  0
TABLE
  2
LTYPE
  5
5
330
0
100
AcDbSymbolTable
 70
    27
  0
LTYPE
  5
13
330
5
100
AcDbSymbolTableRecord
100
AcDbLinetypeTableRecord
  2
ByBlock
 70
     0
  3

 72
    65
 73
     0
 40
0.0
  0
LTYPE
  5
14
330
5
100
AcDbSymbolTableRecord
100
AcDbLinetypeTableRecord
  2
ByLayer
 70
     0
  3

 72
    65
 73
     0
 40
0.0
  0
LTYPE
  5
15
330
5
100
AcDbSymbolTableRecord
100
AcDbLinetypeTableRecord
  2
CONTINUOUS
 70
     0
  3
Solid line
 72
    65
 73
     0
 40
0.0
  0
LTYPE
  5
22
330
5
100
AcDbSymbolTableRecord
100
AcDbLinetypeTableRecord
  2
BORDER
 70
     0
  3
__ __ . __ __ . __ __ . __ __ . __ __ . __ __ .
 72
    65
 73
     6
 40
1.75
 49
0.5
 74
     0
 49
-0.25
 74
     0
 49
0.5
 74
     0
 49
-0.25
 74
     0
 49
0.0
 74
     0
 49
-0.25
 74
     0
  0
LTYPE
  5
23
330
5
100
AcDbSymbolTableRecord
100
AcDbLinetypeTableRecord
  2
BORDER2
 70
     0
  3
__.__.__.__.__.__.__.__.__.__.__.__.__.__.__.__
 72
    65
 73
     6
 40
0.875
 49
0.25
 74
     0
 49
-0.125
 74
     0
 49
0.25
 74
     0
 49
-0.125
 74
     0
 49
0.0
 74
     0
 49
-0.125
 74
     0
  0
LTYPE
  5
24
330
5
100
AcDbSymbolTableRecord
100
AcDbLinetypeTableRecord
  2
BORDERX2
 70
     0
  3
____  ____  .  ____  ____  .  ____  ____  .  __
 72
    65
 73
     6
 40
3.5
 49
1.0
 74
     0
 49
-0.5
 74
     0
 49
1.0
 74
     0
 49
-0.5
 74
     0
 49
0.0
 74
     0
 49
-0.5
 74
     0
  0
LTYPE
  5
25
330
5
100
AcDbSymbolTableRecord
100
AcDbLinetypeTableRecord
  2
CENTER
 70
     0
  3
____ _ ____ _ ____ _ ____ _ ____ _ ____ _ ____ 
 72
    65
 73
     4
 40
2.0
 49
1.25
 74
     0
 49
-0.25
 74
     0
 49
0.25
 74
     0
 49
-0.25
 74
     0
  0
LTYPE
  5
26
330
5
100
AcDbSymbolTableRecord
100
AcDbLinetypeTableRecord
  2
CENTER2
 70
     0
  3
___ _ ___ _ ___ _ ___ _ ___ _ ___ _ ___ _ ___ _
 72
    65
 73
     4
 40
1.125
 49
0.75
 74
     0
 49
-0.125
 74
     0
 49
0.125
 74
     0
 49
-0.125
 74
     0
  0
LTYPE
  5
27
330
5
100
AcDbSymbolTableRecord
100
AcDbLinetypeTableRecord
  2
CENTERX2
 70
     0
  3
________  __  ________  __  ________  __  _____
 72
    65
 73
     4
 40
4.0
 49
2.5
 74
     0
 49
-0.5
 74
     0
 49
0.5
 74
     0
 49
-0.5
 74
     0
  0
LTYPE
  5
28
330
5
100
AcDbSymbolTableRecord
100
AcDbLinetypeTableRecord
  2
DASHDOT
 70
     0
  3
__ . __ . __ . __ . __ . __ . __ . __ . __ . __
 72
    65
 73
     4
 40
1.0
 49
0.5
 74
     0
 49
-0.25
 74
     0
 49
0.0
 74
     0
 49
-0.25
 74
     0
  0
LTYPE
  5
29
330
5
100
AcDbSymbolTableRecord
100
AcDbLinetypeTableRecord
  2
DASHDOT2
 70
     0
  3
_._._._._._._._._._._._._._._._._._._._._._._._
 72
    65
 73
     4
 40
0.5
 49
0.25
 74
     0
 49
-0.125
 74
     0
 49
0.0
 74
     0
 49
-0.125
 74
     0
  0
LTYPE
  5
2A
330
5
100
AcDbSymbolTableRecord
100
AcDbLinetypeTableRecord
  2
DASHDOTX2
 70
     0
  3
____  .  ____  .  ____  .  ____  .  ____  .  __
 72
    65
 73
     4
 40
2.0
 49
1.0
 74
     0
 49
-0.5
 74
     0
 49
0.0
 74
     0
 49
-0.5
 74
     0
  0
LTYPE
  5
2B
330
5
100
AcDbSymbolTableRecord
100
AcDbLinetypeTableRecord
  2
DASHED
 70
     0
  3
__ __ __ __ __ __ __ __ __ __ __ __ __ __ __ __
 72
    65
 73
     2
 40
0.75
 49
0.5
 74
     0
 49
-0.25
 74
     0
  0
LTYPE
  5
2C
330
5
100
AcDbSymbolTableRecord
100
AcDbLinetypeTableRecord
  2
DASHED2
 70
     0
  3
_ _ _ _ _ _ _ _ _ _ _ _ _ _ _ _ _ _ _ _ _ _ _ _
 72
    65
 73
     2
 40
0.375
 49
0.25
 74
     0
 49
-0.125
 74
     0
  0
LTYPE
  5
2D
330
5
100
AcDbSymbolTableRecord
100
AcDbLinetypeTableRecord
  2
DASHEDX2
 70
     0
  3
____  ____  ____  ____  ____  ____  ____  ____ 
 72
    65
 73
     2
 40
1.5
 49
1.0
 74
     0
 49
-0.5
 74
     0
  0
LTYPE
  5
2E
330
5
100
AcDbSymbolTableRecord
100
AcDbLinetypeTableRecord
  2
DIVIDE
 70
     0
  3
____ . . ____ . . ____ . . ____ . . ____ . . __
 72
    65
 73
     6
 40
1.25
 49
0.5
 74
     0
 49
-0.25
 74
     0
 49
0.0
 74
     0
 49
-0.25
 74
     0
 49
0.0
 74
     0
 49
-0.25
 74
     0
  0
LTYPE
  5
2F
330
5
100
AcDbSymbolTableRecord
100
AcDbLinetypeTableRecord
  2
DIVIDE2
 70
     0
  3
__..__..__..__..__..__..__..__..__..__..__..__.
 72
    65
 73
     6
 40
0.625
 49
0.25
 74
     0
 49
-0.125
 74
     0
 49
0.0
 74
     0
 49
-0.125
 74
     0
 49
0.0
 74
     0
 49
-0.125
 74
     0
  0
LTYPE
  5
30
330
5
100
AcDbSymbolTableRecord
100
AcDbLinetypeTableRecord
  2
DIVIDEX2
 70
     0
  3
________  .  .  ________  .  .  ________  .  . 
 72
    65
 73
     6
 40
2.5
 49
1.0
 74
     0
 49
-0.5
 74
     0
 49
0.0
 74
     0
 49
-0.5
 74
     0
 49
0.0
 74
     0
 49
-0.5
 74
     0
  0
LTYPE
  5
31
330
5
100
AcDbSymbolTableRecord
100
AcDbLinetypeTableRecord
  2
DOT
 70
     0
  3
. . . . . . . . . . . . . . . . . . . . . . . .
 72
    65
 73
     2
 40
0.25
 49
0.0
 74
     0
 49
-0.25
 74
     0
  0
LTYPE
  5
32
330
5
100
AcDbSymbolTableRecord
100
AcDbLinetypeTableRecord
  2
DOT2
 70
     0
  3
...............................................
 72
    65
 73
     2
 40
0.125
 49
0.0
 74
     0
 49
-0.125
 74
     0
  0
LTYPE
  5
33
330
5
100
AcDbSymbolTableRecord
100
AcDbLinetypeTableRecord
  2
DOTX2
 70
     0
  3
.  .  .  .  .  .  .  .  .  .  .  .  .  .  .  . 
 72
    65
 73
     2
 40
0.5
 49
0.0
 74
     0
 49
-0.5
 74
     0
  0
LTYPE
  5
34
330
5
100
AcDbSymbolTableRecord
100
AcDbLinetypeTableRecord
  2
HIDDEN
 70
     0
  3
__ __ __ __ __ __ __ __ __ __ __ __ __ __ __ __
 72
    65
 73
     2
 40
0.375
 49
0.25
 74
     0
 49
-0.125
 74
     0
  0
LTYPE
  5
35
330
5
100
AcDbSymbolTableRecord
100
AcDbLinetypeTableRecord
  2
HIDDEN2
 70
     0
  3
_ _ _ _ _ _ _ _ _ _ _ _ _ _ _ _ _ _ _ _ _ _ _ _
 72
    65
 73
     2
 40
0.1875
 49
0.125
 74
     0
 49
-0.0625
 74
     0
  0
LTYPE
  5
36
330
5
100
AcDbSymbolTableRecord
100
AcDbLinetypeTableRecord
  2
HIDDENX2
 70
     0
  3
____ ____ ____ ____ ____ ____ ____ ____ ____ __
 72
    65
 73
     2
 40
0.75
 49
0.5
 74
     0
 49
-0.25
 74
     0
  0
LTYPE
  5
37
330
5
100
AcDbSymbolTableRecord
100
AcDbLinetypeTableRecord
  2
PHANTOM
 70
     0
  3
______  __  __  ______  __  __  ______  __  __ 
 72
    65
 73
     6
 40
2.5
 49
1.25
 74
     0
 49
-0.25
 74
     0
 49
0.25
 74
     0
 49
-0.25
 74
     0
 49
0.25
 74
     0
 49
-0.25
 74
     0
  0
LTYPE
  5
38
330
5
100
AcDbSymbolTableRecord
100
AcDbLinetypeTableRecord
  2
PHANTOM2
 70
     0
  3
___ _ _ ___ _ _ ___ _ _ ___ _ _ ___ _ _ ___ _ _
 72
    65
 73
     6
 40
1.25
 49
0.625
 74
     0
 49
-0.125
 74
     0
 49
0.125
 74
     0
 49
-0.125
 74
     0
 49
0.125
 74
     0
 49
-0.125
 74
     0
  0
LTYPE
  5
39
330
5
100
AcDbSymbolTableRecord
100
AcDbLinetypeTableRecord
  2
PHANTOMX2
 70
     0
  3
____________    ____    ____    ____________   
 72
    65
 73
     6
 40
5.0
 49
2.5
 74
     0
 49
-0.5
 74
     0
 49
0.5
 74
     0
 49
-0.5
 74
     0
 49
0.5
 74
     0
 49
-0.5
 74
     0
  0
LTYPE
  5
1A8
330
5
100
AcDbSymbolTableRecord
100
AcDbLinetypeTableRecord
  2
5
 70
     0
  3
一点鎖線
 72
    65
 73
     4
 40
5.299999999999998
 49
5.0
 74
     0
 49
-0.1
 74
     0
 49
0.1
 74
     0
 49
-0.1
 74
     0
  0
LTYPE
  5
1A9
330
5
100
AcDbSymbolTableRecord
100
AcDbLinetypeTableRecord
  2
2
 70
     0
  3
点線
 72
    65
 73
     2
 40
0.2
 49
0.1
 74
     0
 49
-0.1
 74
     0
  0
ENDTAB
  0
TABLE
  2
LAYER
  5
2
330
0
100
AcDbSymbolTable
 70
    10
  0
LAYER
  5
10
330
2
100
AcDbSymbolTableRecord
100
AcDbLayerTableRecord
  2
0
 70
     0
 62
     7
  6
CONTINUOUS
370
    -3
390
F
  0
LAYER
  5
3B
330
2
100
AcDbSymbolTableRecord
100
AcDbLayerTableRecord
  2
LEVEL001
 70
     0
 62
     7
  6
CONTINUOUS
370
    -3
390
F
  0
LAYER
  5
3C
330
2
100
AcDbSymbolTableRecord
100
AcDbLayerTableRecord
  2
LEVEL030
 70
     0
 62
     7
  6
CONTINUOUS
370
    -3
390
F
  0
LAYER
  5
1AA
330
2
100
AcDbSymbolTableRecord
100
AcDbLayerTableRecord
  2
BOLT
 70
     0
 62
     7
  6
CONTINUOUS
370
    -3
390
F
  0
LAYER
  5
1AB
330
2
100
AcDbSymbolTableRecord
100
AcDbLayerTableRecord
  2
TEXT
 70
     0
 62
     7
  6
CONTINUOUS
370
    -3
390
F
  0
LAYER
  5
1AC
330
2
100
AcDbSymbolTableRecord
100
AcDbLayerTableRecord
  2
DIM
 70
     0
 62
     7
  6
CONTINUOUS
370
    -3
390
F
  0
LAYER
  5
1AD
330
2
100
AcDbSymbolTableRecord
100
AcDbLayerTableRecord
  2
ROOF
 70
     0
 62
     4
  6
CONTINUOUS
370
    -3
390
F
  0
LAYER
  5
1AE
330
2
100
AcDbSymbolTableRecord
100
AcDbLayerTableRecord
  2
KOUZAI
 70
     0
 62
     3
  6
CONTINUOUS
370
    -3
390
F
  0
LAYER
  5
1AF
330
2
100
AcDbSymbolTableRecord
100
AcDbLayerTableRecord
  2
DAN-P
 70
     0
 62
     7
  6
CONTINUOUS
370
    -3
390
F
  0
LAYER
  5
1B0
330
2
100
AcDbSymbolTableRecord
100
AcDbLayerTableRecord
  2
ETC
 70
     0
 62
     7
  6
CONTINUOUS
370
    -3
390
F
  0
ENDTAB
  0
TABLE
  2
STYLE
  5
3
330
0
100
AcDbSymbolTable
 70
     3
  0
STYLE
  5
11
330
3
100
AcDbSymbolTableRecord
100
AcDbTextStyleTableRecord
  2
STANDARD
 70
     0
 40
0.0
 41
1.0
 50
0.0
 71
     0
 42
0.2
  3
TXT
  4
BIGFONT
  0
STYLE
  5
3A
330
3
100
AcDbSymbolTableRecord
100
AcDbTextStyleTableRecord
  2
STANDARD1
 70
     4
 40
0.0
 41
1.0
 50
0.0
 71
     0
 42
0.2
  3
TXT
  4
BIGFONT
  0
STYLE
  5
1B1
330
3
100
AcDbSymbolTableRecord
100
AcDbTextStyleTableRecord
  2
KANJI
 70
     0
 40
0.0
 41
1.0
 50
0.0
 71
     0
 42
9.0
  3
SIMPLEX
  4
BIGFONT
  0
ENDTAB
  0
TABLE
  2
VIEW
  5
6
330
0
100
AcDbSymbolTable
 70
     0
  0
ENDTAB
  0
TABLE
  2
UCS
  5
7
330
0
100
AcDbSymbolTable
 70
     0
  0
ENDTAB
  0
TABLE
  2
APPID
  5
9
330
0
100
AcDbSymbolTable
 70
     1
  0
APPID
  5
12
330
9
100
AcDbSymbolTableRecord
100
AcDbRegAppTableRecord
  2
ACAD
 70
     0
  0
ENDTAB
  0
TABLE
  2
DIMSTYLE
  5
A
330
0
100
AcDbSymbolTable
 70
     1
100
AcDbDimStyleTable
 71
     0
  0
DIMSTYLE
105
121
330
A
100
AcDbSymbolTableRecord
100
AcDbDimStyleTableRecord
  2
Standard
 70
     0
340
11
  0
ENDTAB
  0
TABLE
  2
BLOCK_RECORD
  5
1
330
0
100
AcDbSymbolTable
 70
     4
  0
BLOCK_RECORD
  5
1E
330
1
100
AcDbSymbolTableRecord
100
AcDbBlockTableRecord
  2
*Model_Space
340
21
  0
BLOCK_RECORD
  5
1A
330
1
100
AcDbSymbolTableRecord
100
AcDbBlockTableRecord
  2
*Paper_Space
340
1D
  0
BLOCK_RECORD
  5
138
330
1
100
AcDbSymbolTableRecord
100
AcDbBlockTableRecord
  2
*X0
340
0
102
{BLKREFS
331
1B9
331
286
331
3B7
331
484
102
}
  0
BLOCK_RECORD
  5
19A
330
1
100
AcDbSymbolTableRecord
100
AcDbBlockTableRecord
  2
*X1
340
0
102
{BLKREFS
331
330
331
52E
102
}
  0
ENDTAB
  0
ENDSEC
  0
SECTION
  2
BLOCKS
  0
BLOCK
  5
1F
330
1E
100
AcDbEntity
  8
0
100
AcDbBlockBegin
  2
*Model_Space
 70
     0
 10
0.0
 20
0.0
 30
0.0
  3
*Model_Space
  1

  0
ENDBLK
  5
20
330
1E
100
AcDbEntity
  8
0
100
AcDbBlockEnd
  0
BLOCK
  5
1B
330
1A
100
AcDbEntity
 67
     1
  8
0
100
AcDbBlockBegin
  2
*Paper_Space
 70
     0
 10
0.0
 20
0.0
 30
0.0
  3
*Paper_Space
  1

  0
ENDBLK
  5
1C
330
1A
100
AcDbEntity
 67
     1
  8
0
100
AcDbBlockEnd
  0
BLOCK
  5
198
330
138
100
AcDbEntity
  8
0
100
AcDbBlockBegin
  2
*X0
 70
     1
 10
0.0
 20
0.0
 30
0.0
  3
*X0
  1

  0
LINE
  5
139
330
138
100
AcDbEntity
  8
0
 62
     0
100
AcDbLine
 10
622.4999999999997
 20
293.6877616747334
 30
0.0
 11
622.4999999999997
 21
296.6877616747336
 31
0.0
  0
LINE
  5
13A
330
138
100
AcDbEntity
  8
0
 62
     0
100
AcDbLine
 10
619.9999999999999
 20
293.6877616747334
 30
0.0
 11
619.9999999999999
 21
296.6877616747336
 31
0.0
  0
LINE
  5
13B
330
138
100
AcDbEntity
  8
0
 62
     0
100
AcDbLine
 10
617.4999999999998
 20
293.6877616747334
 30
0.0
 11
617.4999999999998
 21
296.6877616747336
 31
0.0
  0
LINE
  5
13C
330
138
100
AcDbEntity
  8
0
 62
     0
100
AcDbLine
 10
615.0
 20
293.6877616747334
 30
0.0
 11
614.9999999999997
 21
296.6877616747336
 31
0.0
  0
LINE
  5
13D
330
138
100
AcDbEntity
  8
0
 62
     0
100
AcDbLine
 10
612.4999999999999
 20
293.6877616747334
 30
0.0
 11
612.4999999999999
 21
296.6877616747336
 31
0.0
  0
LINE
  5
13E
330
138
100
AcDbEntity
  8
0
 62
     0
100
AcDbLine
 10
609.9999999999997
 20
293.6877616747334
 30
0.0
 11
609.9999999999997
 21
296.6877616747336
 31
0.0
  0
LINE
  5
13F
330
138
100
AcDbEntity
  8
0
 62
     0
100
AcDbLine
 10
607.4999999999996
 20
293.6877616747334
 30
0.0
 11
607.4999999999996
 21
296.6877616747336
 31
0.0
  0
LINE
  5
140
330
138
100
AcDbEntity
  8
0
 62
     0
100
AcDbLine
 10
604.9999999999998
 20
293.6877616747334
 30
0.0
 11
604.9999999999998
 21
296.6877616747336
 31
0.0
  0
LINE
  5
141
330
138
100
AcDbEntity
  8
0
 62
     0
100
AcDbLine
 10
602.4999999999997
 20
293.6877616747334
 30
0.0
 11
602.4999999999997
 21
296.6877616747336
 31
0.0
  0
LINE
  5
142
330
138
100
AcDbEntity
  8
0
 62
     0
100
AcDbLine
 10
599.9999999999999
 20
293.6877616747334
 30
0.0
 11
599.9999999999999
 21
296.6877616747336
 31
0.0
  0
LINE
  5
143
330
138
100
AcDbEntity
  8
0
 62
     0
100
AcDbLine
 10
597.4999999999997
 20
293.6877616747334
 30
0.0
 11
597.4999999999997
 21
296.6877616747336
 31
0.0
  0
LINE
  5
144
330
138
100
AcDbEntity
  8
0
 62
     0
100
AcDbLine
 10
594.9999999999999
 20
293.6877616747336
 30
0.0
 11
594.9999999999999
 21
296.6877616747336
 31
0.0
  0
LINE
  5
145
330
138
100
AcDbEntity
  8
0
 62
     0
100
AcDbLine
 10
592.4999999999998
 20
293.6877616747336
 30
0.0
 11
592.4999999999998
 21
296.6877616747336
 31
0.0
  0
LINE
  5
146
330
138
100
AcDbEntity
  8
0
 62
     0
100
AcDbLine
 10
589.9999999999997
 20
293.6877616747336
 30
0.0
 11
589.9999999999997
 21
296.6877616747336
 31
0.0
  0
LINE
  5
147
330
138
100
AcDbEntity
  8
0
 62
     0
100
AcDbLine
 10
587.4999999999999
 20
293.6877616747336
 30
0.0
 11
587.4999999999999
 21
296.6877616747336
 31
0.0
  0
LINE
  5
148
330
138
100
AcDbEntity
  8
0
 62
     0
100
AcDbLine
 10
584.9999999999997
 20
293.6877616747336
 30
0.0
 11
584.9999999999996
 21
296.6877616747336
 31
0.0
  0
LINE
  5
149
330
138
100
AcDbEntity
  8
0
 62
     0
100
AcDbLine
 10
582.4999999999999
 20
293.6877616747336
 30
0.0
 11
582.4999999999999
 21
296.6877616747336
 31
0.0
  0
LINE
  5
14A
330
138
100
AcDbEntity
  8
0
 62
     0
100
AcDbLine
 10
579.9999999999998
 20
293.6877616747336
 30
0.0
 11
579.9999999999998
 21
296.6877616747336
 31
0.0
  0
LINE
  5
14B
330
138
100
AcDbEntity
  8
0
 62
     0
100
AcDbLine
 10
577.4999999999997
 20
293.6877616747336
 30
0.0
 11
577.4999999999997
 21
296.6877616747336
 31
0.0
  0
LINE
  5
14C
330
138
100
AcDbEntity
  8
0
 62
     0
100
AcDbLine
 10
574.9999999999999
 20
293.6877616747336
 30
0.0
 11
574.9999999999999
 21
296.6877616747336
 31
0.0
  0
LINE
  5
14D
330
138
100
AcDbEntity
  8
0
 62
     0
100
AcDbLine
 10
572.4999999999997
 20
293.6877616747336
 30
0.0
 11
572.4999999999997
 21
296.6877616747336
 31
0.0
  0
LINE
  5
14E
330
138
100
AcDbEntity
  8
0
 62
     0
100
AcDbLine
 10
569.9999999999999
 20
293.6877616747336
 30
0.0
 11
569.9999999999999
 21
296.6877616747336
 31
0.0
  0
LINE
  5
14F
330
138
100
AcDbEntity
  8
0
 62
     0
100
AcDbLine
 10
567.4999999999998
 20
293.6877616747336
 30
0.0
 11
567.4999999999998
 21
296.6877616747336
 31
0.0
  0
LINE
  5
150
330
138
100
AcDbEntity
  8
0
 62
     0
100
AcDbLine
 10
564.9999999999997
 20
293.6877616747336
 30
0.0
 11
564.9999999999997
 21
296.6877616747336
 31
0.0
  0
LINE
  5
151
330
138
100
AcDbEntity
  8
0
 62
     0
100
AcDbLine
 10
562.4999999999999
 20
293.6877616747336
 30
0.0
 11
562.4999999999999
 21
296.6877616747336
 31
0.0
  0
LINE
  5
152
330
138
100
AcDbEntity
  8
0
 62
     0
100
AcDbLine
 10
559.9999999999997
 20
293.6877616747336
 30
0.0
 11
559.9999999999997
 21
296.6877616747336
 31
0.0
  0
LINE
  5
153
330
138
100
AcDbEntity
  8
0
 62
     0
100
AcDbLine
 10
557.4999999999999
 20
293.6877616747336
 30
0.0
 11
557.4999999999999
 21
296.6877616747336
 31
0.0
  0
LINE
  5
154
330
138
100
AcDbEntity
  8
0
 62
     0
100
AcDbLine
 10
554.9999999999998
 20
293.6877616747336
 30
0.0
 11
554.9999999999998
 21
296.6877616747336
 31
0.0
  0
LINE
  5
155
330
138
100
AcDbEntity
  8
0
 62
     0
100
AcDbLine
 10
552.4999999999997
 20
293.6877616747336
 30
0.0
 11
552.4999999999997
 21
296.6877616747336
 31
0.0
  0
LINE
  5
156
330
138
100
AcDbEntity
  8
0
 62
     0
100
AcDbLine
 10
549.9999999999999
 20
293.6877616747336
 30
0.0
 11
549.9999999999999
 21
296.6877616747336
 31
0.0
  0
LINE
  5
157
330
138
100
AcDbEntity
  8
0
 62
     0
100
AcDbLine
 10
547.4999999999997
 20
293.6877616747336
 30
0.0
 11
547.4999999999997
 21
296.6877616747336
 31
0.0
  0
LINE
  5
158
330
138
100
AcDbEntity
  8
0
 62
     0
100
AcDbLine
 10
544.9999999999999
 20
293.6877616747336
 30
0.0
 11
544.9999999999999
 21
296.6877616747336
 31
0.0
  0
LINE
  5
159
330
138
100
AcDbEntity
  8
0
 62
     0
100
AcDbLine
 10
542.4999999999998
 20
293.6877616747336
 30
0.0
 11
542.4999999999998
 21
296.6877616747336
 31
0.0
  0
LINE
  5
15A
330
138
100
AcDbEntity
  8
0
 62
     0
100
AcDbLine
 10
539.9999999999997
 20
293.6877616747336
 30
0.0
 11
539.9999999999997
 21
296.6877616747336
 31
0.0
  0
LINE
  5
15B
330
138
100
AcDbEntity
  8
0
 62
     0
100
AcDbLine
 10
537.4999999999999
 20
293.6877616747336
 30
0.0
 11
537.4999999999999
 21
296.6877616747336
 31
0.0
  0
LINE
  5
15C
330
138
100
AcDbEntity
  8
0
 62
     0
100
AcDbLine
 10
534.9999999999997
 20
293.6877616747336
 30
0.0
 11
534.9999999999997
 21
296.6877616747336
 31
0.0
  0
LINE
  5
15D
330
138
100
AcDbEntity
  8
0
 62
     0
100
AcDbLine
 10
532.4999999999999
 20
293.6877616747336
 30
0.0
 11
532.4999999999999
 21
296.6877616747336
 31
0.0
  0
LINE
  5
15E
330
138
100
AcDbEntity
  8
0
 62
     0
100
AcDbLine
 10
529.9999999999998
 20
293.6877616747336
 30
0.0
 11
529.9999999999998
 21
296.6877616747336
 31
0.0
  0
LINE
  5
15F
330
138
100
AcDbEntity
  8
0
 62
     0
100
AcDbLine
 10
527.4999999999997
 20
293.6877616747336
 30
0.0
 11
527.4999999999997
 21
296.6877616747336
 31
0.0
  0
LINE
  5
160
330
138
100
AcDbEntity
  8
0
 62
     0
100
AcDbLine
 10
524.9999999999999
 20
293.6877616747336
 30
0.0
 11
524.9999999999999
 21
296.6877616747336
 31
0.0
  0
LINE
  5
161
330
138
100
AcDbEntity
  8
0
 62
     0
100
AcDbLine
 10
522.4999999999997
 20
293.6877616747336
 30
0.0
 11
522.4999999999997
 21
296.6877616747336
 31
0.0
  0
LINE
  5
162
330
138
100
AcDbEntity
  8
0
 62
     0
100
AcDbLine
 10
519.9999999999999
 20
293.6877616747336
 30
0.0
 11
519.9999999999999
 21
296.6877616747336
 31
0.0
  0
LINE
  5
163
330
138
100
AcDbEntity
  8
0
 62
     0
100
AcDbLine
 10
517.4999999999998
 20
293.6877616747336
 30
0.0
 11
517.4999999999998
 21
296.6877616747336
 31
0.0
  0
LINE
  5
164
330
138
100
AcDbEntity
  8
0
 62
     0
100
AcDbLine
 10
514.9999999999997
 20
293.6877616747336
 30
0.0
 11
514.9999999999997
 21
296.6877616747336
 31
0.0
  0
LINE
  5
165
330
138
100
AcDbEntity
  8
0
 62
     0
100
AcDbLine
 10
512.4999999999999
 20
293.6877616747336
 30
0.0
 11
512.4999999999999
 21
296.6877616747336
 31
0.0
  0
LINE
  5
166
330
138
100
AcDbEntity
  8
0
 62
     0
100
AcDbLine
 10
509.9999999999997
 20
293.6877616747336
 30
0.0
 11
509.9999999999999
 21
296.6877616747336
 31
0.0
  0
LINE
  5
167
330
138
100
AcDbEntity
  8
0
 62
     0
100
AcDbLine
 10
507.4999999999999
 20
293.6877616747336
 30
0.0
 11
507.4999999999999
 21
296.6877616747336
 31
0.0
  0
LINE
  5
168
330
138
100
AcDbEntity
  8
0
 62
     0
100
AcDbLine
 10
504.9999999999998
 20
293.6877616747336
 30
0.0
 11
504.9999999999998
 21
296.6877616747336
 31
0.0
  0
LINE
  5
169
330
138
100
AcDbEntity
  8
0
 62
     0
100
AcDbLine
 10
502.4999999999997
 20
293.6877616747336
 30
0.0
 11
502.4999999999997
 21
296.6877616747336
 31
0.0
  0
LINE
  5
16A
330
138
100
AcDbEntity
  8
0
 62
     0
100
AcDbLine
 10
499.9999999999999
 20
293.6877616747336
 30
0.0
 11
499.9999999999999
 21
296.6877616747336
 31
0.0
  0
LINE
  5
16B
330
138
100
AcDbEntity
  8
0
 62
     0
100
AcDbLine
 10
497.4999999999997
 20
293.6877616747336
 30
0.0
 11
497.4999999999997
 21
296.6877616747336
 31
0.0
  0
LINE
  5
16C
330
138
100
AcDbEntity
  8
0
 62
     0
100
AcDbLine
 10
494.9999999999999
 20
293.6877616747336
 30
0.0
 11
494.9999999999999
 21
296.6877616747336
 31
0.0
  0
LINE
  5
16D
330
138
100
AcDbEntity
  8
0
 62
     0
100
AcDbLine
 10
492.4999999999998
 20
293.6877616747336
 30
0.0
 11
492.4999999999998
 21
296.6877616747336
 31
0.0
  0
LINE
  5
16E
330
138
100
AcDbEntity
  8
0
 62
     0
100
AcDbLine
 10
489.9999999999997
 20
293.6877616747336
 30
0.0
 11
489.9999999999997
 21
296.6877616747336
 31
0.0
  0
LINE
  5
16F
330
138
100
AcDbEntity
  8
0
 62
     0
100
AcDbLine
 10
487.4999999999998
 20
293.6877616747336
 30
0.0
 11
487.4999999999998
 21
296.6877616747336
 31
0.0
  0
LINE
  5
170
330
138
100
AcDbEntity
  8
0
 62
     0
100
AcDbLine
 10
484.9999999999997
 20
293.6877616747336
 30
0.0
 11
484.9999999999997
 21
296.6877616747336
 31
0.0
  0
LINE
  5
171
330
138
100
AcDbEntity
  8
0
 62
     0
100
AcDbLine
 10
482.4999999999999
 20
293.6877616747336
 30
0.0
 11
482.4999999999999
 21
296.6877616747336
 31
0.0
  0
LINE
  5
172
330
138
100
AcDbEntity
  8
0
 62
     0
100
AcDbLine
 10
479.9999999999998
 20
293.6877616747336
 30
0.0
 11
479.9999999999998
 21
296.6877616747336
 31
0.0
  0
LINE
  5
173
330
138
100
AcDbEntity
  8
0
 62
     0
100
AcDbLine
 10
477.4999999999997
 20
293.6877616747336
 30
0.0
 11
477.4999999999999
 21
296.6877616747336
 31
0.0
  0
LINE
  5
174
330
138
100
AcDbEntity
  8
0
 62
     0
100
AcDbLine
 10
474.9999999999999
 20
293.6877616747336
 30
0.0
 11
475.0
 21
296.6877616747336
 31
0.0
  0
LINE
  5
175
330
138
100
AcDbEntity
  8
0
 62
     0
100
AcDbLine
 10
472.4999999999999
 20
293.6877616747336
 30
0.0
 11
472.4999999999999
 21
296.6877616747336
 31
0.0
  0
LINE
  5
176
330
138
100
AcDbEntity
  8
0
 62
     0
100
AcDbLine
 10
469.9999999999999
 20
293.6877616747336
 30
0.0
 11
469.9999999999999
 21
296.6877616747336
 31
0.0
  0
LINE
  5
177
330
138
100
AcDbEntity
  8
0
 62
     0
100
AcDbLine
 10
467.4999999999999
 20
293.6877616747336
 30
0.0
 11
467.4999999999999
 21
296.6877616747336
 31
0.0
  0
LINE
  5
178
330
138
100
AcDbEntity
  8
0
 62
     0
100
AcDbLine
 10
464.9999999999999
 20
293.6877616747336
 30
0.0
 11
464.9999999999999
 21
296.6877616747336
 31
0.0
  0
LINE
  5
179
330
138
100
AcDbEntity
  8
0
 62
     0
100
AcDbLine
 10
462.4999999999999
 20
293.6877616747336
 30
0.0
 11
462.4999999999999
 21
296.6877616747336
 31
0.0
  0
LINE
  5
17A
330
138
100
AcDbEntity
  8
0
 62
     0
100
AcDbLine
 10
459.9999999999999
 20
293.6877616747336
 30
0.0
 11
459.9999999999999
 21
296.6877616747336
 31
0.0
  0
LINE
  5
17B
330
138
100
AcDbEntity
  8
0
 62
     0
100
AcDbLine
 10
457.4999999999999
 20
293.6877616747336
 30
0.0
 11
457.4999999999999
 21
296.6877616747336
 31
0.0
  0
LINE
  5
17C
330
138
100
AcDbEntity
  8
0
 62
     0
100
AcDbLine
 10
454.9999999999999
 20
293.6877616747336
 30
0.0
 11
454.9999999999999
 21
296.6877616747336
 31
0.0
  0
LINE
  5
17D
330
138
100
AcDbEntity
  8
0
 62
     0
100
AcDbLine
 10
452.4999999999999
 20
293.6877616747336
 30
0.0
 11
452.4999999999997
 21
296.6877616747336
 31
0.0
  0
LINE
  5
17E
330
138
100
AcDbEntity
  8
0
 62
     0
100
AcDbLine
 10
450.0
 20
293.6877616747336
 30
0.0
 11
449.9999999999999
 21
296.6877616747336
 31
0.0
  0
LINE
  5
17F
330
138
100
AcDbEntity
  8
0
 62
     0
100
AcDbLine
 10
447.4999999999999
 20
293.6877616747336
 30
0.0
 11
447.4999999999999
 21
296.6877616747336
 31
0.0
  0
LINE
  5
180
330
138
100
AcDbEntity
  8
0
 62
     0
100
AcDbLine
 10
444.9999999999999
 20
293.6877616747336
 30
0.0
 11
444.9999999999999
 21
296.6877616747336
 31
0.0
  0
LINE
  5
181
330
138
100
AcDbEntity
  8
0
 62
     0
100
AcDbLine
 10
442.4999999999999
 20
293.6877616747336
 30
0.0
 11
442.4999999999999
 21
296.6877616747336
 31
0.0
  0
LINE
  5
182
330
138
100
AcDbEntity
  8
0
 62
     0
100
AcDbLine
 10
439.9999999999999
 20
293.6877616747336
 30
0.0
 11
439.9999999999999
 21
296.6877616747336
 31
0.0
  0
LINE
  5
183
330
138
100
AcDbEntity
  8
0
 62
     0
100
AcDbLine
 10
437.4999999999999
 20
293.6877616747336
 30
0.0
 11
437.4999999999999
 21
296.6877616747336
 31
0.0
  0
LINE
  5
184
330
138
100
AcDbEntity
  8
0
 62
     0
100
AcDbLine
 10
434.9999999999999
 20
293.6877616747336
 30
0.0
 11
434.9999999999999
 21
296.6877616747336
 31
0.0
  0
LINE
  5
185
330
138
100
AcDbEntity
  8
0
 62
     0
100
AcDbLine
 10
432.4999999999999
 20
293.6877616747336
 30
0.0
 11
432.4999999999999
 21
296.6877616747336
 31
0.0
  0
LINE
  5
186
330
138
100
AcDbEntity
  8
0
 62
     0
100
AcDbLine
 10
429.9999999999999
 20
293.6877616747336
 30
0.0
 11
429.9999999999999
 21
296.6877616747336
 31
0.0
  0
LINE
  5
187
330
138
100
AcDbEntity
  8
0
 62
     0
100
AcDbLine
 10
427.4999999999999
 20
293.6877616747336
 30
0.0
 11
427.4999999999999
 21
296.6877616747336
 31
0.0
  0
LINE
  5
188
330
138
100
AcDbEntity
  8
0
 62
     0
100
AcDbLine
 10
424.9999999999999
 20
293.6877616747336
 30
0.0
 11
424.9999999999999
 21
296.6877616747336
 31
0.0
  0
LINE
  5
189
330
138
100
AcDbEntity
  8
0
 62
     0
100
AcDbLine
 10
422.4999999999999
 20
293.6877616747336
 30
0.0
 11
422.4999999999999
 21
296.6877616747336
 31
0.0
  0
LINE
  5
18A
330
138
100
AcDbEntity
  8
0
 62
     0
100
AcDbLine
 10
419.9999999999999
 20
293.6877616747336
 30
0.0
 11
419.9999999999999
 21
296.6877616747336
 31
0.0
  0
LINE
  5
18B
330
138
100
AcDbEntity
  8
0
 62
     0
100
AcDbLine
 10
417.4999999999999
 20
293.6877616747336
 30
0.0
 11
417.4999999999999
 21
296.6877616747336
 31
0.0
  0
LINE
  5
18C
330
138
100
AcDbEntity
  8
0
 62
     0
100
AcDbLine
 10
414.9999999999997
 20
293.6877616747336
 30
0.0
 11
414.9999999999999
 21
296.6877616747336
 31
0.0
  0
LINE
  5
18D
330
138
100
AcDbEntity
  8
0
 62
     0
100
AcDbLine
 10
412.4999999999999
 20
293.6877616747336
 30
0.0
 11
412.4999999999999
 21
296.6877616747336
 31
0.0
  0
LINE
  5
18E
330
138
100
AcDbEntity
  8
0
 62
     0
100
AcDbLine
 10
409.9999999999999
 20
293.6877616747336
 30
0.0
 11
409.9999999999999
 21
296.6877616747336
 31
0.0
  0
LINE
  5
18F
330
138
100
AcDbEntity
  8
0
 62
     0
100
AcDbLine
 10
407.4999999999999
 20
293.6877616747336
 30
0.0
 11
407.4999999999999
 21
296.6877616747336
 31
0.0
  0
LINE
  5
190
330
138
100
AcDbEntity
  8
0
 62
     0
100
AcDbLine
 10
404.9999999999999
 20
293.6877616747336
 30
0.0
 11
404.9999999999999
 21
296.6877616747336
 31
0.0
  0
LINE
  5
191
330
138
100
AcDbEntity
  8
0
 62
     0
100
AcDbLine
 10
402.4999999999999
 20
293.6877616747336
 30
0.0
 11
402.4999999999999
 21
296.6877616747336
 31
0.0
  0
LINE
  5
192
330
138
100
AcDbEntity
  8
0
 62
     0
100
AcDbLine
 10
399.9999999999999
 20
293.6877616747336
 30
0.0
 11
399.9999999999999
 21
296.6877616747336
 31
0.0
  0
LINE
  5
193
330
138
100
AcDbEntity
  8
0
 62
     0
100
AcDbLine
 10
397.4999999999997
 20
293.6877616747336
 30
0.0
 11
397.4999999999999
 21
296.6877616747336
 31
0.0
  0
LINE
  5
194
330
138
100
AcDbEntity
  8
0
 62
     0
100
AcDbLine
 10
394.9999999999999
 20
293.6877616747336
 30
0.0
 11
395.0
 21
296.6877616747336
 31
0.0
  0
LINE
  5
195
330
138
100
AcDbEntity
  8
0
 62
     0
100
AcDbLine
 10
392.4999999999999
 20
293.6877616747336
 30
0.0
 11
392.4999999999999
 21
296.6877616747336
 31
0.0
  0
LINE
  5
196
330
138
100
AcDbEntity
  8
0
 62
     0
100
AcDbLine
 10
389.9999999999999
 20
293.6877616747336
 30
0.0
 11
389.9999999999999
 21
296.6877616747336
 31
0.0
  0
LINE
  5
197
330
138
100
AcDbEntity
  8
0
 62
     0
100
AcDbLine
 10
387.5
 20
293.6877616747336
 30
0.0
 11
387.4999999999999
 21
296.6877616747336
 31
0.0
  0
ENDBLK
  5
199
330
138
100
AcDbEntity
  8
0
100
AcDbBlockEnd
  0
BLOCK
  5
1A6
330
19A
100
AcDbEntity
  8
0
100
AcDbBlockBegin
  2
*X1
 70
     1
 10
0.0
 20
0.0
 30
0.0
  3
*X1
  1

  0
LINE
  5
19B
330
19A
100
AcDbEntity
  8
0
 62
     0
100
AcDbLine
 10
679.9999999999998
 20
358.6877616747335
 30
0.0
 11
679.9999999999998
 21
360.8877616747335
 31
0.0
  0
LINE
  5
19C
330
19A
100
AcDbEntity
  8
0
 62
     0
100
AcDbLine
 10
677.5
 20
358.6877616747335
 30
0.0
 11
677.4999999999997
 21
360.8877616747335
 31
0.0
  0
LINE
  5
19D
330
19A
100
AcDbEntity
  8
0
 62
     0
100
AcDbLine
 10
674.9999999999999
 20
358.6877616747335
 30
0.0
 11
674.9999999999999
 21
360.8877616747335
 31
0.0
  0
LINE
  5
19E
330
19A
100
AcDbEntity
  8
0
 62
     0
100
AcDbLine
 10
672.4999999999997
 20
358.6877616747335
 30
0.0
 11
672.4999999999997
 21
360.8877616747335
 31
0.0
  0
LINE
  5
19F
330
19A
100
AcDbEntity
  8
0
 62
     0
100
AcDbLine
 10
669.9999999999999
 20
358.6877616747335
 30
0.0
 11
669.9999999999999
 21
360.8877616747335
 31
0.0
  0
LINE
  5
1A0
330
19A
100
AcDbEntity
  8
0
 62
     0
100
AcDbLine
 10
667.4999999999998
 20
358.6877616747335
 30
0.0
 11
667.4999999999998
 21
360.8877616747335
 31
0.0
  0
LINE
  5
1A1
330
19A
100
AcDbEntity
  8
0
 62
     0
100
AcDbLine
 10
682.4999999999999
 20
358.6877616747335
 30
0.0
 11
682.4999999999999
 21
360.8877616747335
 31
0.0
  0
LINE
  5
1A2
330
19A
100
AcDbEntity
  8
0
 62
     0
100
AcDbLine
 10
684.9999999999997
 20
358.6877616747335
 30
0.0
 11
684.9999999999997
 21
360.8877616747335
 31
0.0
  0
LINE
  5
1A3
330
19A
100
AcDbEntity
  8
0
 62
     0
100
AcDbLine
 10
687.4999999999999
 20
358.6877616747335
 30
0.0
 11
687.4999999999999
 21
360.8877616747335
 31
0.0
  0
LINE
  5
1A4
330
19A
100
AcDbEntity
  8
0
 62
     0
100
AcDbLine
 10
689.9999999999996
 20
358.6877616747335
 30
0.0
 11
689.9999999999996
 21
360.8877616747335
 31
0.0
  0
LINE
  5
1A5
330
19A
100
AcDbEntity
  8
0
 62
     0
100
AcDbLine
 10
692.4999999999997
 20
358.6877616747335
 30
0.0
 11
692.4999999999997
 21
360.8877616747335
 31
0.0
  0
ENDBLK
  5
1A7
330
19A
100
AcDbEntity
  8
0
100
AcDbBlockEnd
  0
ENDSEC
  0
SECTION
  2
ENTITIES
  0
LINE
  5
3B4
330
1E
100
AcDbEntity
  8
ROOF
 62
     0
100
AcDbLine
 10
-400.9972705410218
 20
833.9993285251697
 30
0.0
 11
-639.0735782333295
 21
833.9993285251697
 31
0.0
  0
LINE
  5
3B5
330
1E
100
AcDbEntity
  8
DIM
 62
     0
100
AcDbLine
 10
-692.2735782333298
 20
1045.786848654009
 30
0.0
 11
-345.2735782333297
 21
1045.786848654009
 31
0.0
  0
LINE
  5
3B8
330
1E
100
AcDbEntity
  8
ROOF
 62
     0
100
AcDbLine
 10
-639.0735782333295
 20
834.7993285251696
 30
0.0
 11
-400.9972705410218
 21
834.7993285251696
 31
0.0
  0
LINE
  5
3BF
330
1E
100
AcDbEntity
  8
ROOF
 62
     0
100
AcDbLine
 10
-711.59533800306
 20
897.3993285251696
 30
0.0
 11
-719.1077193772189
 21
884.9350226827063
 31
0.0
  0
LINE
  5
3C0
330
1E
100
AcDbEntity
  8
ROOF
 62
     0
100
AcDbLine
 10
-639.7537106977096
 20
834.3781161904788
 30
0.0
 11
-674.8897232027601
 21
891.1123112873534
 31
0.0
  0
LINE
  5
3C2
330
1E
100
AcDbEntity
  8
DIM
  6
5
 62
     0
100
AcDbLine
 10
-695.2735782333302
 20
1075.786848654009
 30
0.0
 11
-695.27357823333
 21
879.8480328673809
 31
0.0
  0
LINE
  5
3C4
330
1E
100
AcDbEntity
  8
ROOF
 62
     0
100
AcDbLine
 10
-674.2642089406457
 20
891.6217157509256
 30
0.0
 11
-639.0735782333295
 21
834.7993285251696
 31
0.0
  0
LINE
  5
3C5
330
1E
100
AcDbEntity
  8
ROOF
 62
     0
100
AcDbLine
 10
-719.7734399930976
 20
885.3786622454073
 30
0.0
 11
-712.2610586189389
 21
897.8429680878708
 31
0.0
  0
LINE
  5
3DF
330
1E
100
AcDbEntity
  8
ROOF
 62
     0
100
AcDbLine
 10
-719.1077193772189
 20
884.9350226827063
 30
0.0
 11
-719.7734399930976
 21
885.3786622454073
 31
0.0
  0
ARC
  5
3FF
330
1E
100
AcDbEntity
  8
ROOF
 62
     0
100
AcDbCircle
 10
-639.0735782333294
 20
834.7993285251694
 30
0.0
 40
0.7999999999997272
100
AcDbArc
 50
211.7703166050772
 51
269.9999999999951
  0
LINE
  5
425
330
1E
100
AcDbEntity
  8
ROOF
 62
     0
100
AcDbLine
 10
-681.8423668359769
 20
897.3993285251696
 30
0.0
 11
-711.59533800306
 21
897.3993285251696
 31
0.0
  0
LINE
  5
427
330
1E
100
AcDbEntity
  8
ROOF
 62
     0
100
AcDbLine
 10
-711.59533800306
 20
898.1993285251697
 30
0.0
 11
-681.8423668359769
 21
898.1993285251697
 31
0.0
  0
ARC
  5
438
330
1E
100
AcDbEntity
  8
ROOF
 62
     0
100
AcDbCircle
 10
-711.5953380030598
 20
897.3993285251697
 30
0.0
 40
0.7999999999998523
100
AcDbArc
 50
90.00000000000325
 51
146.320312144114
  0
LINE
  5
440
330
1E
100
AcDbEntity
  8
BOLT
 62
     0
100
AcDbLine
 10
-695.2735782333288
 20
893.6993285251697
 30
0.0
 11
-695.2735782333288
 21
897.3993285251696
 31
0.0
  0
LINE
  5
449
330
1E
100
AcDbEntity
  8
DAN-P
 62
     0
100
AcDbLine
 10
-674.8897232027601
 20
891.1123112873534
 30
0.0
 11
-681.8423668359769
 21
897.3993285251696
 31
0.0
  0
ARC
  5
44A
330
1E
100
AcDbEntity
  8
ROOF
 62
     0
100
AcDbCircle
 10
-681.8423668359769
 20
897.3993285251701
 30
0.0
 40
0.7999999999996703
100
AcDbArc
 50
46.54684520118895
 51
89.99999999999186
  0
LINE
  5
45C
330
1E
100
AcDbEntity
  8
ROOF
 62
     0
100
AcDbLine
 10
-681.2921578140375
 20
897.9800780685843
 30
0.0
 11
-674.2642089406457
 21
891.6217157509256
 31
0.0
  0
LINE
  5
468
330
1E
100
AcDbEntity
  8
DIM
  6
ByBlock
 62
     0
100
AcDbLine
 10
-693.7735782333297
 20
1045.786848654009
 30
0.0
 11
-692.2735782333298
 21
1045.786848654009
 31
0.0
  0
LWPOLYLINE
  5
469
330
1E
100
AcDbEntity
  8
DIM
  6
ByBlock
 62
     0
100
AcDbPolyline
 90
        2
 70
     1
 43
1.5
 10
-694.5235782333297
 20
1045.786848654009
 42
1.0
 10
-696.0235782333297
 20
1045.786848654009
 42
1.0
  0
LINE
  5
46A
330
1E
100
AcDbEntity
  8
DIM
  6
ByBlock
 62
     0
100
AcDbLine
 10
-693.7735782333297
 20
1075.786848654008
 30
0.0
 11
-692.2735782333298
 21
1075.786848654008
 31
0.0
  0
LWPOLYLINE
  5
46B
330
1E
100
AcDbEntity
  8
DIM
  6
ByBlock
 62
     0
100
AcDbPolyline
 90
        2
 70
     1
 43
1.5
 10
-694.5235782333297
 20
1075.786848654008
 42
1.0
 10
-696.0235782333297
 20
1075.786848654008
 42
1.0
  0
TEXT
  5
46C
330
1E
100
AcDbEntity
  8
DIM
 62
     0
100
AcDbText
 10
-540.7467638309444
 20
1051.186848654009
 30
0.0
 40
9.0
  1
350
  7
KANJI
100
AcDbText
  0
LINE
  5
475
330
1E
100
AcDbEntity
  8
ROOF
 62
     0
100
AcDbLine
 10
-362.3188279157622
 20
898.1993285251697
 30
0.0
 11
-400.309880503868
 21
834.3900670722797
 31
0.0
  0
LINE
  5
476
330
1E
100
AcDbEntity
  8
ROOF
 62
     0
100
AcDbLine
 10
-290.237275962791
 20
834.3900670722797
 30
0.0
 11
-328.2283285508965
 21
898.1993285251697
 31
0.0
  0
LINE
  5
477
330
1E
100
AcDbEntity
  8
ROOF
 62
     0
100
AcDbLine
 10
-12.31882791576265
 20
898.1993285251698
 30
0.0
 11
-50.30988050386804
 21
834.3900670722797
 31
0.0
  0
LINE
  5
478
330
1E
100
AcDbEntity
  8
ROOF
 62
     0
100
AcDbLine
 10
34.49815601784019
 20
877.4731061728372
 30
0.0
 11
21.77167144910311
 21
898.1993285251697
 31
0.0
  0
LINE
  5
479
330
1E
100
AcDbEntity
  8
ROOF
 62
     0
100
AcDbLine
 10
22.45906148625738
 20
898.6085899780597
 30
0.0
 11
35.30413784847826
 21
877.7026673267625
 31
0.0
  0
LINE
  5
47A
330
1E
100
AcDbEntity
  8
ROOF
 62
     0
100
AcDbLine
 10
-50.99727054102174
 20
834.7993285251696
 30
0.0
 11
-13.00621795291772
 21
898.6085899780597
 31
0.0
  0
LINE
  5
47B
330
1E
100
AcDbEntity
  8
ROOF
 62
     0
100
AcDbLine
 10
-327.5409385137426
 20
898.6085899780597
 30
0.0
 11
-289.5498859256372
 21
834.7993285251696
 31
0.0
  0
LINE
  5
47E
330
1E
100
AcDbEntity
  8
DIM
  6
5
 62
     0
100
AcDbLine
 10
-345.2735782333297
 20
1045.786848654009
 30
0.0
 11
-345.2735782333297
 21
879.8480328673809
 31
0.0
  0
LINE
  5
47F
330
1E
100
AcDbEntity
  8
DIM
  6
5
 62
     0
100
AcDbLine
 10
4.726421766669204
 20
1075.786848654008
 30
0.0
 11
4.726421766670569
 21
879.8480328673813
 31
0.0
  0
LINE
  5
482
330
1E
100
AcDbEntity
  8
DIM
 62
     0
100
AcDbLine
 10
-258.8016819354151
 20
895.9993285251696
 30
0.0
 11
-258.8016819354151
 21
833.9993285251697
 31
0.0
  0
LINE
  5
483
330
1E
100
AcDbEntity
  8
ROOF
 62
     0
100
AcDbLine
 10
-400.9972705410218
 20
834.7993285251696
 30
0.0
 11
-363.0062179529162
 21
898.6085899780597
 31
0.0
  0
LINE
  5
485
330
1E
100
AcDbEntity
  8
ROOF
 62
     0
100
AcDbLine
 10
-50.99727054102174
 20
833.9993285251697
 30
0.0
 11
-289.5498859256372
 21
833.9993285251697
 31
0.0
  0
LINE
  5
486
330
1E
100
AcDbEntity
  8
ROOF
 62
     0
100
AcDbLine
 10
-289.5498859256372
 20
834.7993285251696
 30
0.0
 11
-50.99727054102174
 21
834.7993285251696
 31
0.0
  0
LWPOLYLINE
  5
487
330
1E
100
AcDbEntity
  8
DIM
  6
ByBlock
 62
     0
100
AcDbPolyline
 90
        2
 70
     1
 43
1.5
 10
-258.8016819354151
 20
835.5493285251695
 42
1.0
 10
-258.8016819354151
 20
834.0493285251696
 42
1.0
  0
ARC
  5
48B
330
1E
100
AcDbEntity
  8
ROOF
 62
     0
100
AcDbCircle
 10
-400.9972705410218
 20
834.7993285251696
 30
0.0
 40
0.8000000000000087
100
AcDbArc
 50
270.0
 51
329.2310821394012
  0
TEXT
  5
4BD
330
1E
100
AcDbEntity
  8
DIM
 62
     0
100
AcDbText
 10
-261.0421712975989
 20
856.2652828188021
 30
0.0
 40
9.0
  1
66
 50
90.0
  7
KANJI
100
AcDbText
  0
ARC
  5
4C5
330
1E
100
AcDbEntity
  8
ROOF
 62
     0
100
AcDbCircle
 10
-289.5498859256372
 20
834.7993285251696
 30
0.0
 40
0.8000000000000111
100
AcDbArc
 50
210.7689178605979
 51
270.0
  0
LINE
  5
4CB
330
1E
100
AcDbEntity
  8
DIM
  6
ByBlock
 62
     0
100
AcDbLine
 10
-258.8016819354151
 20
836.2993285251697
 30
0.0
 11
-258.8016819354151
 21
837.7993285251696
 31
0.0
  0
ARC
  5
4D6
330
1E
100
AcDbEntity
  8
ROOF
 62
     0
100
AcDbCircle
 10
-50.99727054102174
 20
834.7993285251696
 30
0.0
 40
0.8000000000000087
100
AcDbArc
 50
270.0
 51
329.2310821394012
  0
LINE
  5
4FF
330
1E
100
AcDbEntity
  8
ROOF
 62
     0
100
AcDbLine
 10
37.01483481279331
 20
873.4094195001249
 30
0.0
 11
34.49815601784019
 21
877.4731061728372
 31
0.0
  0
LINE
  5
500
330
1E
100
AcDbEntity
  8
ROOF
 62
     0
100
AcDbLine
 10
35.30413784847826
 20
877.7026673267625
 30
0.0
 11
37.66935722139135
 21
873.8737541409598
 31
0.0
  0
LINE
  5
50D
330
1E
100
AcDbEntity
  8
ROOF
 62
     0
100
AcDbLine
 10
37.66935722139135
 20
873.8737541409598
 30
0.0
 11
37.01483481279331
 21
873.4094195001249
 31
0.0
  0
LINE
  5
51E
330
1E
100
AcDbEntity
  8
DIM
 62
     0
100
AcDbLine
 10
4.726421766669204
 20
1045.786848654009
 30
0.0
 11
-345.2735782333297
 21
1045.786848654009
 31
0.0
  0
LWPOLYLINE
  5
51F
330
1E
100
AcDbEntity
  8
DIM
  6
ByBlock
 62
     0
100
AcDbPolyline
 90
        2
 70
     1
 43
1.5
 10
-258.8016819354151
 20
898.2493285251697
 42
1.0
 10
-258.8016819354151
 20
899.7493285251698
 42
1.0
  0
LINE
  5
520
330
1E
100
AcDbEntity
  8
DIM
 62
     0
100
AcDbLine
 10
-316.2667350926296
 20
898.9993285251697
 30
0.0
 11
-258.8016819354151
 21
898.9993285251697
 31
0.0
  0
LINE
  5
52A
330
1E
100
AcDbEntity
  8
ROOF
 62
     0
100
AcDbLine
 10
-328.2283285508965
 20
898.1993285251697
 30
0.0
 11
-362.3188279157622
 21
898.1993285251697
 31
0.0
  0
TEXT
  5
52C
330
1E
100
AcDbEntity
  8
DIM
 62
     0
100
AcDbText
 10
-352.676702988642
 20
944.7797029213097
 30
0.0
 40
9.0
  1
35
  7
KANJI
100
AcDbText
  0
LINE
  5
52D
330
1E
100
AcDbEntity
  8
DIM
 62
     0
100
AcDbLine
 10
-359.7735782333295
 20
939.3797029213098
 30
0.0
 11
-330.7810172014428
 21
939.3797029213098
 31
0.0
  0
LINE
  5
52F
330
1E
100
AcDbEntity
  8
ROOF
 62
     0
100
AcDbLine
 10
-362.3188279157624
 20
898.9993285251697
 30
0.0
 11
-328.2283285508965
 21
898.9993285251697
 31
0.0
  0
LINE
  5
530
330
1E
100
AcDbEntity
  8
DIM
 62
     0
100
AcDbLine
 10
-362.7735782333295
 20
912.1382979293606
 30
0.0
 11
-362.7735782333295
 21
939.3797029213098
 31
0.0
  0
ARC
  5
533
330
1E
100
AcDbEntity
  8
ROOF
 62
     0
100
AcDbCircle
 10
-362.3188279157624
 20
898.1993285251698
 30
0.0
 40
0.7999999999999796
100
AcDbArc
 50
90.0
 51
149.231082139402
  0
LWPOLYLINE
  5
53E
330
1E
100
AcDbEntity
  8
DIM
  6
ByBlock
 62
     0
100
AcDbPolyline
 90
        2
 70
     1
 43
1.5
 10
-362.0235782333295
 20
939.3797029213098
 42
1.0
 10
-363.5235782333297
 20
939.3797029213098
 42
1.0
  0
LINE
  5
53F
330
1E
100
AcDbEntity
  8
DIM
  6
ByBlock
 62
     0
100
AcDbLine
 10
-361.2735782333297
 20
939.3797029213098
 30
0.0
 11
-359.7735782333295
 21
939.3797029213098
 31
0.0
  0
LINE
  5
540
330
1E
100
AcDbEntity
  8
DIM
 62
     0
100
AcDbLine
 10
-327.7810172014427
 20
912.1382979293606
 30
0.0
 11
-327.7810172014427
 21
939.3797029213098
 31
0.0
  0
ARC
  5
55E
330
1E
100
AcDbEntity
  8
ROOF
 62
     0
100
AcDbCircle
 10
-328.2283285508971
 20
898.1993285251698
 30
0.0
 40
0.7999999999999796
100
AcDbArc
 50
30.7689178605975
 51
90.0
  0
ARC
  5
560
330
1E
100
AcDbEntity
  8
ROOF
 62
     0
100
AcDbCircle
 10
-328.2283285508965
 20
898.1993285251698
 30
0.0
 40
0.8000000000000111
100
AcDbArc
 50
30.7689178605975
 51
90.0
  0
LWPOLYLINE
  5
561
330
1E
100
AcDbEntity
  8
DIM
  6
ByBlock
 62
     0
100
AcDbPolyline
 90
        2
 70
     1
 43
1.5
 10
-328.5310172014428
 20
939.3797029213098
 42
1.0
 10
-327.0310172014427
 20
939.3797029213098
 42
1.0
  0
LINE
  5
562
330
1E
100
AcDbEntity
  8
DIM
  6
ByBlock
 62
     0
100
AcDbLine
 10
-329.2810172014427
 20
939.3797029213098
 30
0.0
 11
-330.7810172014428
 21
939.3797029213098
 31
0.0
  0
TEXT
  5
563
330
1E
100
AcDbEntity
  8
DIM
 62
     0
100
AcDbText
 10
-359.1592925190439
 20
1080.560972770191
 30
0.0
 40
9.0
  1
700
  7
KANJI
100
AcDbText
  0
LINE
  5
564
330
1E
100
AcDbEntity
  8
DIM
  6
ByBlock
 62
     0
100
AcDbLine
 10
-346.7735782333295
 20
1045.786848654009
 30
0.0
 11
-348.2735782333297
 21
1045.786848654009
 31
0.0
  0
LWPOLYLINE
  5
565
330
1E
100
AcDbEntity
  8
DIM
  6
ByBlock
 62
     0
100
AcDbPolyline
 90
        2
 70
     1
 43
1.5
 10
-346.0235782333297
 20
1045.786848654009
 42
1.0
 10
-344.5235782333295
 20
1045.786848654009
 42
1.0
  0
LINE
  5
566
330
1E
100
AcDbEntity
  8
DIM
  6
ByBlock
 62
     0
100
AcDbLine
 10
-258.8016819354151
 20
897.4993285251697
 30
0.0
 11
-258.8016819354151
 21
895.9993285251696
 31
0.0
  0
TEXT
  5
567
330
1E
100
AcDbEntity
  8
DIM
 62
     0
100
AcDbText
 10
-165.9485169667111
 20
1051.186848654009
 30
0.0
 40
9.0
  1
350
  7
KANJI
100
AcDbText
  0
LINE
  5
56D
330
1E
100
AcDbEntity
  8
ROOF
 62
     0
100
AcDbLine
 10
21.77167144910311
 20
898.1993285251697
 30
0.0
 11
-12.31882791576265
 21
898.1993285251698
 31
0.0
  0
LINE
  5
56E
330
1E
100
AcDbEntity
  8
ROOF
 62
     0
100
AcDbLine
 10
-12.31882791576379
 20
898.9993285251697
 30
0.0
 11
21.77167144910311
 21
898.9993285251697
 31
0.0
  0
LINE
  5
56F
330
1E
100
AcDbEntity
  8
DIM
 62
     0
100
AcDbLine
 10
-9.773578233329772
 20
939.3797029213098
 30
0.0
 11
19.21898279855724
 21
939.3797029213098
 31
0.0
  0
LINE
  5
570
330
1E
100
AcDbEntity
  8
DIM
 62
     0
100
AcDbLine
 10
-12.77357823332977
 20
912.1382979293606
 30
0.0
 11
-12.77357823332977
 21
939.3797029213098
 31
0.0
  0
ARC
  5
578
330
1E
100
AcDbEntity
  8
ROOF
 62
     0
100
AcDbCircle
 10
-12.31882791576379
 20
898.1993285251698
 30
0.0
 40
0.7999999999999796
100
AcDbArc
 50
90.0
 51
149.231082139402
  0
LWPOLYLINE
  5
597
330
1E
100
AcDbEntity
  8
DIM
  6
ByBlock
 62
     0
100
AcDbPolyline
 90
        2
 70
     1
 43
1.5
 10
-12.02357823332977
 20
939.3797029213098
 42
1.0
 10
-13.52357823332977
 20
939.3797029213098
 42
1.0
  0
LINE
  5
598
330
1E
100
AcDbEntity
  8
DIM
  6
ByBlock
 62
     0
100
AcDbLine
 10
-11.27357823332977
 20
939.3797029213098
 30
0.0
 11
-9.773578233329772
 21
939.3797029213098
 31
0.0
  0
TEXT
  5
599
330
1E
100
AcDbEntity
  8
DIM
 62
     0
100
AcDbText
 10
-2.676702988642773
 20
944.7797029213109
 30
0.0
 40
9.0
  1
35
  7
KANJI
100
AcDbText
  0
LINE
  5
59A
330
1E
100
AcDbEntity
  8
DIM
 62
     0
100
AcDbLine
 10
22.21898279855725
 20
912.1382979293606
 30
0.0
 11
22.21898279855725
 21
939.3797029213098
 31
0.0
  0
ARC
  5
5A3
330
1E
100
AcDbEntity
  8
ROOF
 62
     0
100
AcDbCircle
 10
21.77167144910311
 20
898.1993285251698
 30
0.0
 40
0.8000000000000111
100
AcDbArc
 50
30.7689178605975
 51
90.0
  0
LWPOLYLINE
  5
5A4
330
1E
100
AcDbEntity
  8
DIM
  6
ByBlock
 62
     0
100
AcDbPolyline
 90
        2
 70
     1
 43
1.5
 10
21.46898279855725
 20
939.3797029213098
 42
1.0
 10
22.96898279855656
 20
939.3797029213098
 42
1.0
  0
LINE
  5
5A5
330
1E
100
AcDbEntity
  8
DIM
  6
ByBlock
 62
     0
100
AcDbLine
 10
20.71898279855724
 20
939.3797029213098
 30
0.0
 11
19.21898279855724
 21
939.3797029213098
 31
0.0
  0
LWPOLYLINE
  5
5A6
330
1E
100
AcDbEntity
  8
DIM
  6
ByBlock
 62
     0
100
AcDbPolyline
 90
        2
 70
     1
 43
1.5
 10
3.976421766669204
 20
1045.786848654009
 42
1.0
 10
5.476421766669204
 20
1045.786848654009
 42
1.0
  0
LINE
  5
5A7
330
1E
100
AcDbEntity
  8
DIM
  6
ByBlock
 62
     0
100
AcDbLine
 10
3.226421766670569
 20
1075.786848654008
 30
0.0
 11
1.726421766670569
 21
1075.786848654008
 31
0.0
  0
LWPOLYLINE
  5
5A8
330
1E
100
AcDbEntity
  8
DIM
  6
ByBlock
 62
     0
100
AcDbPolyline
 90
        2
 70
     1
 43
1.5
 10
3.976421766670569
 20
1075.786848654008
 42
1.0
 10
5.476421766670569
 20
1075.786848654008
 42
1.0
  0
LWPOLYLINE
  5
685
330
1E
100
AcDbEntity
  8
LEVEL030
  6
Continuous
 62
     0
100
AcDbPolyline
 90
        5
 70
     0
 43
0.0
 10
-726.0827112564214
 20
659.363886569858
 10
44.16754874357862
 20
659.363886569858
 10
44.16754874357862
 20
1199.514354569858
 10
-726.0827112564214
 20
1199.514354569858
 10
-726.0827112564214
 20
659.363886569858
  0
LWPOLYLINE
  5
6F6
330
1E
100
AcDbEntity
  8
LEVEL001
  6
Continuous
 62
     0
100
AcDbPolyline
 90
        3
 70
     0
 43
0.0
 10
44.16754874357866
 20
689.3639065698581
 10
-60.83245125642133
 20
689.3639065698581
 10
-60.83245125642133
 20
674.3639065698581
  0
LWPOLYLINE
  5
6F7
330
1E
100
AcDbEntity
  8
LEVEL001
  6
Continuous
 62
     0
100
AcDbPolyline
 90
        3
 70
     0
 43
0.0
 10
44.16754874357866
 20
674.3639065698581
 10
-60.83245125642133
 20
674.3639065698581
 10
-60.83245125642133
 20
659.363886569858
  0
TEXT
  5
6F8
330
1E
100
AcDbEntity
  8
LEVEL001
 62
     0
100
AcDbText
 10
-50.31145125642138
 20
663.363886569858
 30
0.0
 40
7.0
  1
株式会社　三　邦
 11
-50.31145125642138
 21
666.863886569858
 31
0.0
100
AcDbText
 73
     2
  0
LINE
  5
70C
330
1E
100
AcDbEntity
  8
LEVEL001
  6
Continuous
 62
     0
100
AcDbLine
 10
29.16754874357866
 20
674.3639065698581
 30
0.0
 11
29.16754874357866
 21
659.363886569858
 31
0.0
  0
TEXT
  5
70D
330
1E
100
AcDbEntity
  8
LEVEL001
 62
     0
100
AcDbText
 10
-18.79912445642133
 20
678.3639065698581
 30
0.0
 40
7.0
  1
ルーフ６６
 41
0.9166669999999999
 72
     1
 11
-0.8324512564213364
 21
681.8639065698581
 31
0.0
100
AcDbText
 73
     2
  0
LINE
  5
758
330
1E
100
AcDbEntity
  8
0
  6
Continuous
100
AcDbLine
 10
44.16754874357866
 20
689.3639065698581
 30
0.0
 11
44.16754874357866
 21
659.363886569858
 31
0.0
  0
LINE
  5
759
330
1E
100
AcDbEntity
  8
0
  6
Continuous
100
AcDbLine
 10
-60.83245125642133
 20
659.363886569858
 30
0.0
 11
44.16754874357866
 21
659.363886569858
 31
0.0
  0
ENDSEC
  0
SECTION
  2
OBJECTS
  0
DICTIONARY
  5
C
330
0
100
AcDbDictionary
281
     1
  3
ACAD_GROUP
350
D
  3
ACAD_LAYOUT
350
19
  3
ACAD_MLINESTYLE
350
16
  3
ACAD_PLOTSETTINGS
350
18
  3
ACAD_PLOTSTYLENAME
350
E
  3
AcDbVariableDictionary
350
124
  0
DICTIONARY
  5
D
102
{ACAD_REACTORS
330
C
102
}
330
C
100
AcDbDictionary
281
     1
  0
DICTIONARY
  5
19
102
{ACAD_REACTORS
330
C
102
}
330
C
100
AcDbDictionary
281
     1
  3
Model
350
21
  3
ﾚｲｱｳﾄ1
350
1D
  0
DICTIONARY
  5
16
102
{ACAD_REACTORS
330
C
102
}
330
C
100
AcDbDictionary
281
     1
  3
Standard
350
17
  0
DICTIONARY
  5
18
102
{ACAD_REACTORS
330
C
102
}
330
C
100
AcDbDictionary
281
     1
  0
ACDBDICTIONARYWDFLT
  5
E
102
{ACAD_REACTORS
330
C
102
}
330
C
100
AcDbDictionary
281
     1
  3
Normal
350
F
100
AcDbDictionaryWithDefault
340
F
  0
DICTIONARY
  5
124
102
{ACAD_REACTORS
330
C
102
}
330
C
100
AcDbDictionary
281
     1
  3
DIMASSOC
350
125
  0
LAYOUT
  5
21
102
{ACAD_REACTORS
330
19
102
}
330
19
100
AcDbPlotSettings
  1

  2
RICOH imagio Neo 350 RPCS
  4
A3
  6

 40
5.873749732971191
 41
5.873747825622558
 42
5.873748779296875
 43
5.873748779296875
 44
296.9259948730469
 45
419.9466552734374
 46
0.0
 47
0.0
 48
12.3648
 49
1.28864
140
604.865
141
416.7889999999999
142
1.0
143
1.456983486841697
 70
 11952
 72
     1
 73
     1
 74
     4
  7

 75
     0
147
0.6863495770756464
148
-12.3648
149
-1.28864
100
AcDbLayout
  1
Model
 70
     1
 71
     0
 10
0.0
 20
0.0
 11
12.0
 21
9.0
 12
0.0
 22
0.0
 32
0.0
 14
0.0
 24
0.0
 34
0.0
 15
0.0
 25
0.0
 35
0.0
146
0.0
 13
0.0
 23
0.0
 33
0.0
 16
1.0
 26
0.0
 36
0.0
 17
0.0
 27
1.0
 37
0.0
 76
     0
330
1E
  0
LAYOUT
  5
1D
102
{ACAD_REACTORS
330
19
102
}
330
19
100
AcDbPlotSettings
  1

  2
RICOH imagio Neo 350 RPCS
  4

  6

 40
0.0
 41
0.0
 42
0.0
 43
0.0
 44
0.0
 45
0.0
 46
0.0
 47
0.0
 48
0.0
 49
0.0
140
0.0
141
0.0
142
1.0
143
1.0
 70
   688
 72
     0
 73
     0
 74
     5
  7

 75
    16
147
1.0
148
0.0
149
0.0
100
AcDbLayout
  1
ﾚｲｱｳﾄ1
 70
     1
 71
     1
 10
0.0
 20
0.0
 11
12.0
 21
9.0
 12
0.0
 22
0.0
 32
0.0
 14
1.000000000000000E+20
 24
1.000000000000000E+20
 34
1.000000000000000E+20
 15
-1.000000000000000E+20
 25
-1.000000000000000E+20
 35
-1.000000000000000E+20
146
0.0
 13
0.0
 23
0.0
 33
0.0
 16
1.0
 26
0.0
 36
0.0
 17
0.0
 27
1.0
 37
0.0
 76
     0
330
1A
  0
MLINESTYLE
  5
17
102
{ACAD_REACTORS
330
16
102
}
330
16
100
AcDbMlineStyle
  2
STANDARD
 70
     0
  3

 62
   256
 51
90.0
 52
90.0
 71
     2
 49
0.5
 62
   256
  6
BYLAYER
 49
-0.5
 62
   256
  6
BYLAYER
  0
ACDBPLACEHOLDER
  5
F
102
{ACAD_REACTORS
330
E
102
}
330
E
  0
DICTIONARYVAR
  5
125
102
{ACAD_REACTORS
330
124
102
}
330
124
100
DictionaryVariables
280
     0
  1
1
  0
ENDSEC
  0
EOF
